ISO-10303-21;
HEADER;
FILE_DESCRIPTION (( 'STEP AP203' ),
    '1' );
FILE_NAME ('250814 STEP 3-400575-00_6811.STEP',
    '2025-08-14T10:46:15',
    ( '' ),
    ( '' ),
    'SwSTEP 2.0',
    'SolidWorks 2024',
    '' );
FILE_SCHEMA (( 'CONFIG_CONTROL_DESIGN' ));
ENDSEC;

DATA;
#1 = ORIENTED_EDGE ( 'NONE', *, *, #107, .T. ) ;
#2 = APPROVAL ( #145, 'UNSPECIFIED' ) ;
#3 = DIRECTION ( 'NONE',  ( -0.000000000000000000, -0.000000000000000000, 1.000000000000000000 ) ) ;
#4 = PRODUCT_DEFINITION_FORMATION_WITH_SPECIFIED_SOURCE ( 'ANY', '', #60, .NOT_KNOWN. ) ;
#5 = FACE_OUTER_BOUND ( 'NONE', #142, .T. ) ;
#6 = FACE_BOUND ( 'NONE', #223, .T. ) ;
#7 = CARTESIAN_POINT ( 'NONE',  ( 0.000000000000000000, 0.000000000000000000, 1.478207252018052698 ) ) ;
#8 = CONICAL_SURFACE ( 'NONE', #177, 51.78770650821585519, 1.178097245096171308 ) ;
#9 = CARTESIAN_POINT ( 'NONE',  ( 0.000000000000000000, 0.000000000000000000, 1.478207252018052698 ) ) ;
#10 = CARTESIAN_POINT ( 'NONE',  ( 51.78770650821585519, 0.000000000000000000, -1.478207252018052698 ) ) ;
#11 = ADVANCED_FACE ( 'NONE', ( #73, #199 ), #293, .T. ) ;
#12 =( LENGTH_UNIT ( ) NAMED_UNIT ( * ) SI_UNIT ( .MILLI., .METRE. ) );
#13 = AXIS2_PLACEMENT_3D ( 'NONE', #55, #178, #82 ) ;
#14 = VERTEX_POINT ( 'NONE', #163 ) ;
#15 = CARTESIAN_POINT ( 'NONE',  ( 61.89999999999999858, 0.000000000000000000, 7.150000000000000355 ) ) ;
#16 = VERTEX_POINT ( 'NONE', #235 ) ;
#17 = CIRCLE ( 'NONE', #204, 17.50000000000000355 ) ;
#18 = ORIENTED_EDGE ( 'NONE', *, *, #224, .T. ) ;
#19 = APPLICATION_PROTOCOL_DEFINITION ( 'international standard', 'config_control_design', 1994, #117 ) ;
#20 = ORIENTED_EDGE ( 'NONE', *, *, #213, .F. ) ;
#21 = DATE_AND_TIME ( #319, #300 ) ;
#22 = EDGE_LOOP ( 'NONE', ( #146 ) ) ;
#23 = COORDINATED_UNIVERSAL_TIME_OFFSET ( 2, 0, .AHEAD. ) ;
#24 = CIRCLE ( 'NONE', #180, 7.500000000000000000 ) ;
#25 = ORIENTED_EDGE ( 'NONE', *, *, #53, .T. ) ;
#26 = FACE_BOUND ( 'NONE', #97, .T. ) ;
#27 = CARTESIAN_POINT ( 'NONE',  ( 0.000000000000000000, 0.000000000000000000, 6.049999999999998046 ) ) ;
#28 = AXIS2_PLACEMENT_3D ( 'NONE', #208, #261, #314 ) ;
#29 = APPROVAL_PERSON_ORGANIZATION ( #296, #303, #198 ) ;
#30 = DIRECTION ( 'NONE',  ( 1.000000000000000000, 0.000000000000000000, 0.000000000000000000 ) ) ;
#31 = DIRECTION ( 'NONE',  ( 1.000000000000000000, 0.000000000000000000, 0.000000000000000000 ) ) ;
#32 = EDGE_CURVE ( 'NONE', #37, #37, #233, .T. ) ;
#33 = DIRECTION ( 'NONE',  ( 1.000000000000000000, 0.000000000000000000, -0.000000000000000000 ) ) ;
#34 = APPLICATION_CONTEXT ( 'configuration controlled 3d designs of mechanical parts and assemblies' ) ;
#35 = CARTESIAN_POINT ( 'NONE',  ( 61.90000000000000568, 0.000000000000000000, 5.666856363012244380 ) ) ;
#36 = FACE_OUTER_BOUND ( 'NONE', #42, .T. ) ;
#37 = VERTEX_POINT ( 'NONE', #210 ) ;
#38 = FACE_OUTER_BOUND ( 'NONE', #22, .T. ) ;
#39 = PERSON_AND_ORGANIZATION_ROLE ( 'classification_officer' ) ;
#40 = ORIENTED_EDGE ( 'NONE', *, *, #203, .T. ) ;
#41 = AXIS2_PLACEMENT_3D ( 'NONE', #179, #205, #279 ) ;
#42 = EDGE_LOOP ( 'NONE', ( #275 ) ) ;
#43 = SHAPE_DEFINITION_REPRESENTATION ( #232, #93 ) ;
#44 = EDGE_LOOP ( 'NONE', ( #18 ) ) ;
#45 = EDGE_LOOP ( 'NONE', ( #66 ) ) ;
#46 = EDGE_LOOP ( 'NONE', ( #1 ) ) ;
#47 = EDGE_CURVE ( 'NONE', #236, #236, #137, .T. ) ;
#48 = AXIS2_PLACEMENT_3D ( 'NONE', #316, #61, #139 ) ;
#49 = FACE_OUTER_BOUND ( 'NONE', #76, .T. ) ;
#50 = CARTESIAN_POINT ( 'NONE',  ( 0.000000000000000000, 0.000000000000000000, 7.149999999999999467 ) ) ;
#51 = CARTESIAN_POINT ( 'NONE',  ( 0.000000000000000000, 0.000000000000000000, 7.150000000000000355 ) ) ;
#52 = AXIS2_PLACEMENT_3D ( 'NONE', #306, #181, #33 ) ;
#53 = EDGE_CURVE ( 'NONE', #14, #14, #154, .T. ) ;
#54 = DIRECTION ( 'NONE',  ( 1.000000000000000000, 0.000000000000000000, 0.000000000000000000 ) ) ;
#55 = CARTESIAN_POINT ( 'NONE',  ( 0.000000000000000000, 0.000000000000000000, -4.950000000000001066 ) ) ;
#56 = DIRECTION ( 'NONE',  ( 1.000000000000000000, 0.000000000000000000, 0.000000000000000000 ) ) ;
#57 = EDGE_CURVE ( 'NONE', #209, #209, #186, .T. ) ;
#58 = AXIS2_PLACEMENT_3D ( 'NONE', #166, #215, #322 ) ;
#59 = DIRECTION ( 'NONE',  ( -0.000000000000000000, -0.000000000000000000, 1.000000000000000000 ) ) ;
#60 = PRODUCT ( '250814 STEP 3-400575-00_6811', '250814 STEP 3-400575-00_6811', '', ( #150 ) ) ;
#61 = DIRECTION ( 'NONE',  ( -0.000000000000000000, -0.000000000000000000, 1.000000000000000000 ) ) ;
#62 = FACE_OUTER_BOUND ( 'NONE', #329, .T. ) ;
#63 = EDGE_CURVE ( 'NONE', #113, #113, #17, .T. ) ;
#64 = VERTEX_POINT ( 'NONE', #10 ) ;
#65 = PERSON_AND_ORGANIZATION ( #175, #144 ) ;
#66 = ORIENTED_EDGE ( 'NONE', *, *, #213, .T. ) ;
#67 = CC_DESIGN_PERSON_AND_ORGANIZATION_ASSIGNMENT ( #65, #271, ( #60 ) ) ;
#68 = AXIS2_PLACEMENT_3D ( 'NONE', #125, #311, #234 ) ;
#69 = PERSON_AND_ORGANIZATION_ROLE ( 'design_supplier' ) ;
#70 = AXIS2_PLACEMENT_3D ( 'NONE', #214, #244, #191 ) ;
#71 = ORIENTED_EDGE ( 'NONE', *, *, #203, .F. ) ;
#72 = PERSON_AND_ORGANIZATION ( #175, #144 ) ;
#73 = FACE_BOUND ( 'NONE', #193, .T. ) ;
#74 = PRODUCT_RELATED_PRODUCT_CATEGORY ( 'detail', '', ( #60 ) ) ;
#75 = APPROVAL_DATE_TIME ( #174, #165 ) ;
#76 = EDGE_LOOP ( 'NONE', ( #98 ) ) ;
#77 = FACE_OUTER_BOUND ( 'NONE', #176, .T. ) ;
#78 = DIRECTION ( 'NONE',  ( -0.000000000000000000, -0.000000000000000000, 1.000000000000000000 ) ) ;
#79 = FACE_OUTER_BOUND ( 'NONE', #305, .T. ) ;
#80 = DIRECTION ( 'NONE',  ( -0.000000000000000000, -0.000000000000000000, 1.000000000000000000 ) ) ;
#81 = CC_DESIGN_APPROVAL ( #165, ( #4 ) ) ;
#82 = DIRECTION ( 'NONE',  ( 1.000000000000000000, 0.000000000000000000, 0.000000000000000000 ) ) ;
#83 = CYLINDRICAL_SURFACE ( 'NONE', #206, 7.500000000000000000 ) ;
#84 = CYLINDRICAL_SURFACE ( 'NONE', #48, 61.89999999999999858 ) ;
#85 = AXIS2_PLACEMENT_3D ( 'NONE', #127, #103, #310 ) ;
#86 =( NAMED_UNIT ( * ) PLANE_ANGLE_UNIT ( ) SI_UNIT ( $, .RADIAN. ) );
#87 = FACE_BOUND ( 'NONE', #44, .T. ) ;
#88 = EDGE_CURVE ( 'NONE', #16, #16, #149, .T. ) ;
#89 = CARTESIAN_POINT ( 'NONE',  ( 61.89999999999999858, 0.000000000000000000, -7.150000000000000355 ) ) ;
#90 = APPROVAL_STATUS ( 'not_yet_approved' ) ;
#91 = EDGE_LOOP ( 'NONE', ( #20 ) ) ;
#92 = APPROVAL_DATE_TIME ( #298, #303 ) ;
#93 = ADVANCED_BREP_SHAPE_REPRESENTATION ( '250814 STEP 3-400575-00_6811', ( #290, #70 ), #126 ) ;
#94 = ORIENTED_EDGE ( 'NONE', *, *, #107, .F. ) ;
#95 = PERSON_AND_ORGANIZATION_ROLE ( 'creator' ) ;
#96 = DIRECTION ( 'NONE',  ( -1.000000000000000000, 0.000000000000000000, 0.000000000000000000 ) ) ;
#97 = EDGE_LOOP ( 'NONE', ( #151 ) ) ;
#98 = ORIENTED_EDGE ( 'NONE', *, *, #53, .F. ) ;
#99 = AXIS2_PLACEMENT_3D ( 'NONE', #257, #252, #281 ) ;
#100 = PLANE ( 'NONE',  #41 ) ;
#101 = LOCAL_TIME ( 13, 46, 15.00000000000000000, #23 ) ;
#102 = DIRECTION ( 'NONE',  ( -0.000000000000000000, -0.000000000000000000, 1.000000000000000000 ) ) ;
#103 = DIRECTION ( 'NONE',  ( -0.000000000000000000, -0.000000000000000000, 1.000000000000000000 ) ) ;
#104 = DIRECTION ( 'NONE',  ( 1.000000000000000000, 0.000000000000000000, 0.000000000000000000 ) ) ;
#105 = CLOSED_SHELL ( 'NONE', ( #309, #255, #268, #230, #11, #171, #112, #289, #249, #129, #140, #318 ) ) ;
#106 = LOCAL_TIME ( 13, 46, 15.00000000000000000, #169 ) ;
#107 = EDGE_CURVE ( 'NONE', #212, #212, #242, .T. ) ;
#108 = DIRECTION ( 'NONE',  ( 1.000000000000000000, 0.000000000000000000, 0.000000000000000000 ) ) ;
#109 = DIRECTION ( 'NONE',  ( -0.000000000000000000, -0.000000000000000000, 1.000000000000000000 ) ) ;
#110 = CARTESIAN_POINT ( 'NONE',  ( 0.000000000000000000, 0.000000000000000000, 7.150000000000000355 ) ) ;
#111 = CARTESIAN_POINT ( 'NONE',  ( 7.500000000000000000, 0.000000000000000000, 6.049999999999998046 ) ) ;
#112 = ADVANCED_FACE ( 'NONE', ( #201, #130 ), #8, .T. ) ;
#113 = VERTEX_POINT ( 'NONE', #211 ) ;
#114 = CALENDAR_DATE ( 2025, 14, 8 ) ;
#115 = EDGE_LOOP ( 'NONE', ( #251 ) ) ;
#116 = APPROVAL_ROLE ( '' ) ;
#117 = APPLICATION_CONTEXT ( 'configuration controlled 3d designs of mechanical parts and assemblies' ) ;
#118 = EDGE_LOOP ( 'NONE', ( #267 ) ) ;
#119 = CIRCLE ( 'NONE', #312, 51.78770650821585519 ) ;
#120 = PERSON_AND_ORGANIZATION ( #175, #144 ) ;
#121 = ORIENTED_EDGE ( 'NONE', *, *, #47, .T. ) ;
#122 = EDGE_LOOP ( 'NONE', ( #324 ) ) ;
#123 = DIRECTION ( 'NONE',  ( 1.000000000000000000, 0.000000000000000000, 0.000000000000000000 ) ) ;
#124 = CIRCLE ( 'NONE', #143, 61.90000000000000568 ) ;
#125 = CARTESIAN_POINT ( 'NONE',  ( 0.000000000000000000, 0.000000000000000000, 6.049999999999998046 ) ) ;
#126 =( GEOMETRIC_REPRESENTATION_CONTEXT ( 3 ) GLOBAL_UNCERTAINTY_ASSIGNED_CONTEXT ( ( #207 ) ) GLOBAL_UNIT_ASSIGNED_CONTEXT ( ( #12, #86, #216 ) ) REPRESENTATION_CONTEXT ( 'NONE', 'WORKASPACE' ) );
#127 = CARTESIAN_POINT ( 'NONE',  ( 0.000000000000000000, 0.000000000000000000, 7.150000000000000355 ) ) ;
#128 = DIRECTION ( 'NONE',  ( -0.000000000000000000, -0.000000000000000000, 1.000000000000000000 ) ) ;
#129 = ADVANCED_FACE ( 'NONE', ( #183, #308 ), #283, .F. ) ;
#130 = FACE_BOUND ( 'NONE', #248, .T. ) ;
#131 = AXIS2_PLACEMENT_3D ( 'NONE', #51, #158, #31 ) ;
#132 = CC_DESIGN_SECURITY_CLASSIFICATION ( #227, ( #4 ) ) ;
#133 = DIRECTION ( 'NONE',  ( 1.000000000000000000, 0.000000000000000000, 0.000000000000000000 ) ) ;
#134 = FACE_OUTER_BOUND ( 'NONE', #115, .T. ) ;
#135 = EDGE_CURVE ( 'NONE', #260, #260, #24, .T. ) ;
#136 = PLANE ( 'NONE',  #28 ) ;
#137 = CIRCLE ( 'NONE', #270, 61.90000000000000568 ) ;
#138 = DIRECTION ( 'NONE',  ( -1.000000000000000000, 0.000000000000000000, 0.000000000000000000 ) ) ;
#139 = DIRECTION ( 'NONE',  ( 1.000000000000000000, 0.000000000000000000, 0.000000000000000000 ) ) ;
#140 = ADVANCED_FACE ( 'NONE', ( #229, #6 ), #157, .T. ) ;
#141 = CALENDAR_DATE ( 2025, 14, 8 ) ;
#142 = EDGE_LOOP ( 'NONE', ( #40 ) ) ;
#143 = AXIS2_PLACEMENT_3D ( 'NONE', #276, #128, #104 ) ;
#144 = ORGANIZATION ( 'UNSPECIFIED', 'UNSPECIFIED', '' ) ;
#145 = APPROVAL_STATUS ( 'not_yet_approved' ) ;
#146 = ORIENTED_EDGE ( 'NONE', *, *, #224, .F. ) ;
#147 = ORIENTED_EDGE ( 'NONE', *, *, #88, .T. ) ;
#148 = EDGE_LOOP ( 'NONE', ( #121 ) ) ;
#149 = CIRCLE ( 'NONE', #320, 17.50000000000000000 ) ;
#150 = MECHANICAL_CONTEXT ( 'NONE', #34, 'mechanical' ) ;
#151 = ORIENTED_EDGE ( 'NONE', *, *, #88, .F. ) ;
#152 = DIRECTION ( 'NONE',  ( -0.000000000000000000, -0.000000000000000000, 1.000000000000000000 ) ) ;
#153 = DIRECTION ( 'NONE',  ( 0.000000000000000000, 0.000000000000000000, 1.000000000000000000 ) ) ;
#154 = CIRCLE ( 'NONE', #160, 51.78770650821585519 ) ;
#155 = CARTESIAN_POINT ( 'NONE',  ( 0.000000000000000000, 0.000000000000000000, 0.000000000000000000 ) ) ;
#156 = CC_DESIGN_APPROVAL ( #2, ( #217 ) ) ;
#157 = PLANE ( 'NONE',  #68 ) ;
#158 = DIRECTION ( 'NONE',  ( -0.000000000000000000, -0.000000000000000000, 1.000000000000000000 ) ) ;
#159 = CARTESIAN_POINT ( 'NONE',  ( 61.90000000000000568, 0.000000000000000000, -5.666856363012243492 ) ) ;
#160 = AXIS2_PLACEMENT_3D ( 'NONE', #9, #152, #258 ) ;
#161 = FACE_OUTER_BOUND ( 'NONE', #118, .T. ) ;
#162 = CYLINDRICAL_SURFACE ( 'NONE', #327, 17.50000000000000000 ) ;
#163 = CARTESIAN_POINT ( 'NONE',  ( 51.78770650821585519, 0.000000000000000000, 1.478207252018052698 ) ) ;
#164 = CYLINDRICAL_SURFACE ( 'NONE', #168, 12.00000000000000000 ) ;
#165 = APPROVAL ( #90, 'UNSPECIFIED' ) ;
#166 = CARTESIAN_POINT ( 'NONE',  ( 0.000000000000000000, 0.000000000000000000, -4.950000000000001066 ) ) ;
#167 = CALENDAR_DATE ( 2025, 14, 8 ) ;
#168 = AXIS2_PLACEMENT_3D ( 'NONE', #184, #291, #238 ) ;
#169 = COORDINATED_UNIVERSAL_TIME_OFFSET ( 2, 0, .AHEAD. ) ;
#170 = CARTESIAN_POINT ( 'NONE',  ( 0.000000000000000000, 0.000000000000000000, -5.666856363012243492 ) ) ;
#171 = ADVANCED_FACE ( 'NONE', ( #49, #77 ), #285, .F. ) ;
#172 = COORDINATED_UNIVERSAL_TIME_OFFSET ( 2, 0, .AHEAD. ) ;
#173 = EDGE_LOOP ( 'NONE', ( #297 ) ) ;
#174 = DATE_AND_TIME ( #219, #106 ) ;
#175 = PERSON ( 'UNSPECIFIED', 'UNSPECIFIED', 'UNSPECIFIED', ('UNSPECIFIED'), ('UNSPECIFIED'), ('UNSPECIFIED') ) ;
#176 = EDGE_LOOP ( 'NONE', ( #302 ) ) ;
#177 = AXIS2_PLACEMENT_3D ( 'NONE', #7, #80, #200 ) ;
#178 = DIRECTION ( 'NONE',  ( -0.000000000000000000, -0.000000000000000000, -1.000000000000000000 ) ) ;
#179 = CARTESIAN_POINT ( 'NONE',  ( 0.000000000000000000, 23.52000575465030252, 7.150000000000000355 ) ) ;
#180 = AXIS2_PLACEMENT_3D ( 'NONE', #27, #153, #123 ) ;
#181 = DIRECTION ( 'NONE',  ( 0.000000000000000000, 0.000000000000000000, 1.000000000000000000 ) ) ;
#182 = LOCAL_TIME ( 13, 46, 15.00000000000000000, #172 ) ;
#183 = FACE_BOUND ( 'NONE', #173, .T. ) ;
#184 = CARTESIAN_POINT ( 'NONE',  ( 0.000000000000000000, 0.000000000000000000, 7.150000000000000355 ) ) ;
#185 = CARTESIAN_POINT ( 'NONE',  ( 12.00000000000000000, 0.000000000000000000, -4.950000000000001066 ) ) ;
#186 = CIRCLE ( 'NONE', #131, 61.89999999999999858 ) ;
#187 = CC_DESIGN_PERSON_AND_ORGANIZATION_ASSIGNMENT ( #192, #69, ( #4 ) ) ;
#188 = CC_DESIGN_APPROVAL ( #303, ( #227 ) ) ;
#189 = FACE_OUTER_BOUND ( 'NONE', #197, .T. ) ;
#190 = VERTEX_POINT ( 'NONE', #292 ) ;
#191 = DIRECTION ( 'NONE',  ( 1.000000000000000000, 0.000000000000000000, 0.000000000000000000 ) ) ;
#192 = PERSON_AND_ORGANIZATION ( #175, #144 ) ;
#193 = EDGE_LOOP ( 'NONE', ( #245 ) ) ;
#194 = DATE_AND_TIME ( #141, #182 ) ;
#195 = CARTESIAN_POINT ( 'NONE',  ( 0.000000000000000000, 0.000000000000000000, -5.666856363012243492 ) ) ;
#196 = DATE_TIME_ROLE ( 'classification_date' ) ;
#197 = EDGE_LOOP ( 'NONE', ( #94 ) ) ;
#198 = APPROVAL_ROLE ( '' ) ;
#199 = FACE_OUTER_BOUND ( 'NONE', #148, .T. ) ;
#200 = DIRECTION ( 'NONE',  ( 1.000000000000000000, 0.000000000000000000, 0.000000000000000000 ) ) ;
#201 = FACE_OUTER_BOUND ( 'NONE', #91, .T. ) ;
#202 = CARTESIAN_POINT ( 'NONE',  ( 0.000000000000000000, 0.000000000000000000, 6.049999999999998046 ) ) ;
#203 = EDGE_CURVE ( 'NONE', #262, #262, #237, .T. ) ;
#204 = AXIS2_PLACEMENT_3D ( 'NONE', #202, #277, #313 ) ;
#205 = DIRECTION ( 'NONE',  ( 0.000000000000000000, 0.000000000000000000, -1.000000000000000000 ) ) ;
#206 = AXIS2_PLACEMENT_3D ( 'NONE', #239, #284, #138 ) ;
#207 = UNCERTAINTY_MEASURE_WITH_UNIT (LENGTH_MEASURE( 1.000000000000000082E-05 ), #12, 'distance_accuracy_value', 'NONE');
#208 = CARTESIAN_POINT ( 'NONE',  ( 0.000000000000000000, 25.99668878408266082, -7.150000000000000355 ) ) ;
#209 = VERTEX_POINT ( 'NONE', #15 ) ;
#210 = CARTESIAN_POINT ( 'NONE',  ( 7.500000000000000000, 0.000000000000000000, -4.950000000000001066 ) ) ;
#211 = CARTESIAN_POINT ( 'NONE',  ( 17.50000000000000355, 0.000000000000000000, 6.049999999999998046 ) ) ;
#212 = VERTEX_POINT ( 'NONE', #185 ) ;
#213 = EDGE_CURVE ( 'NONE', #287, #287, #124, .T. ) ;
#214 = CARTESIAN_POINT ( 'NONE',  ( 0.000000000000000000, 0.000000000000000000, 0.000000000000000000 ) ) ;
#215 = DIRECTION ( 'NONE',  ( 0.000000000000000000, 0.000000000000000000, 1.000000000000000000 ) ) ;
#216 =( NAMED_UNIT ( * ) SI_UNIT ( $, .STERADIAN. ) SOLID_ANGLE_UNIT ( ) );
#217 = PRODUCT_DEFINITION ( 'UNKNOWN', '', #4, #317 ) ;
#218 = EDGE_LOOP ( 'NONE', ( #147 ) ) ;
#219 = CALENDAR_DATE ( 2025, 14, 8 ) ;
#220 = AXIS2_PLACEMENT_3D ( 'NONE', #155, #226, #30 ) ;
#221 = APPROVAL_PERSON_ORGANIZATION ( #120, #165, #266 ) ;
#222 = DATE_TIME_ROLE ( 'creation_date' ) ;
#223 = EDGE_LOOP ( 'NONE', ( #246 ) ) ;
#224 = EDGE_CURVE ( 'NONE', #190, #190, #254, .T. ) ;
#225 = ORIENTED_EDGE ( 'NONE', *, *, #47, .F. ) ;
#226 = DIRECTION ( 'NONE',  ( -0.000000000000000000, -0.000000000000000000, 1.000000000000000000 ) ) ;
#227 = SECURITY_CLASSIFICATION ( '', '', #250 ) ;
#228 = CARTESIAN_POINT ( 'NONE',  ( 0.000000000000000000, 0.000000000000000000, -7.150000000000002132 ) ) ;
#229 = FACE_OUTER_BOUND ( 'NONE', #122, .T. ) ;
#230 = ADVANCED_FACE ( 'NONE', ( #231, #5 ), #256, .T. ) ;
#231 = FACE_OUTER_BOUND ( 'NONE', #272, .T. ) ;
#232 = PRODUCT_DEFINITION_SHAPE ( 'NONE', 'NONE',  #217 ) ;
#233 = CIRCLE ( 'NONE', #58, 7.500000000000000000 ) ;
#234 = DIRECTION ( 'NONE',  ( 1.000000000000000000, 0.000000000000000000, -0.000000000000000000 ) ) ;
#235 = CARTESIAN_POINT ( 'NONE',  ( 17.50000000000000000, 0.000000000000000000, 7.149999999999999467 ) ) ;
#236 = VERTEX_POINT ( 'NONE', #159 ) ;
#237 = CIRCLE ( 'NONE', #99, 61.89999999999999858 ) ;
#238 = DIRECTION ( 'NONE',  ( 1.000000000000000000, 0.000000000000000000, 0.000000000000000000 ) ) ;
#239 = CARTESIAN_POINT ( 'NONE',  ( 0.000000000000000000, 0.000000000000000000, 6.049999999999998046 ) ) ;
#240 = APPROVAL_STATUS ( 'not_yet_approved' ) ;
#241 = ORIENTED_EDGE ( 'NONE', *, *, #57, .T. ) ;
#242 = CIRCLE ( 'NONE', #13, 12.00000000000000000 ) ;
#243 = APPROVAL_PERSON_ORGANIZATION ( #301, #2, #116 ) ;
#244 = DIRECTION ( 'NONE',  ( 0.000000000000000000, 0.000000000000000000, 1.000000000000000000 ) ) ;
#245 = ORIENTED_EDGE ( 'NONE', *, *, #282, .F. ) ;
#246 = ORIENTED_EDGE ( 'NONE', *, *, #135, .F. ) ;
#247 = PERSON_AND_ORGANIZATION ( #175, #144 ) ;
#248 = EDGE_LOOP ( 'NONE', ( #25 ) ) ;
#249 = ADVANCED_FACE ( 'NONE', ( #26, #79 ), #100, .F. ) ;
#250 = SECURITY_CLASSIFICATION_LEVEL ( 'unclassified' ) ;
#251 = ORIENTED_EDGE ( 'NONE', *, *, #57, .F. ) ;
#252 = DIRECTION ( 'NONE',  ( -0.000000000000000000, -0.000000000000000000, 1.000000000000000000 ) ) ;
#253 = DIRECTION ( 'NONE',  ( 1.000000000000000000, 0.000000000000000000, 0.000000000000000000 ) ) ;
#254 = CIRCLE ( 'NONE', #280, 12.00000000000000000 ) ;
#255 = ADVANCED_FACE ( 'NONE', ( #38, #189 ), #164, .F. ) ;
#256 = CYLINDRICAL_SURFACE ( 'NONE', #85, 61.89999999999999858 ) ;
#257 = CARTESIAN_POINT ( 'NONE',  ( 0.000000000000000000, 0.000000000000000000, -7.150000000000000355 ) ) ;
#258 = DIRECTION ( 'NONE',  ( 1.000000000000000000, 0.000000000000000000, 0.000000000000000000 ) ) ;
#259 = CC_DESIGN_PERSON_AND_ORGANIZATION_ASSIGNMENT ( #72, #39, ( #227 ) ) ;
#260 = VERTEX_POINT ( 'NONE', #111 ) ;
#261 = DIRECTION ( 'NONE',  ( 0.000000000000000000, -0.000000000000000000, 1.000000000000000000 ) ) ;
#262 = VERTEX_POINT ( 'NONE', #89 ) ;
#263 = CC_DESIGN_DATE_AND_TIME_ASSIGNMENT ( #273, #222, ( #217 ) ) ;
#264 = FACE_OUTER_BOUND ( 'NONE', #218, .T. ) ;
#265 = CARTESIAN_POINT ( 'NONE',  ( 0.000000000000000000, 0.000000000000000000, -1.478207252018052698 ) ) ;
#266 = APPROVAL_ROLE ( '' ) ;
#267 = ORIENTED_EDGE ( 'NONE', *, *, #32, .F. ) ;
#268 = ADVANCED_FACE ( 'NONE', ( #62, #87 ), #136, .F. ) ;
#269 = ORIENTED_EDGE ( 'NONE', *, *, #135, .T. ) ;
#270 = AXIS2_PLACEMENT_3D ( 'NONE', #170, #102, #253 ) ;
#271 = PERSON_AND_ORGANIZATION_ROLE ( 'design_owner' ) ;
#272 = EDGE_LOOP ( 'NONE', ( #225 ) ) ;
#273 = DATE_AND_TIME ( #114, #101 ) ;
#274 = EDGE_LOOP ( 'NONE', ( #269 ) ) ;
#275 = ORIENTED_EDGE ( 'NONE', *, *, #63, .F. ) ;
#276 = CARTESIAN_POINT ( 'NONE',  ( 0.000000000000000000, 0.000000000000000000, 5.666856363012244380 ) ) ;
#277 = DIRECTION ( 'NONE',  ( 0.000000000000000000, 0.000000000000000000, 1.000000000000000000 ) ) ;
#278 = CC_DESIGN_DATE_AND_TIME_ASSIGNMENT ( #194, #196, ( #227 ) ) ;
#279 = DIRECTION ( 'NONE',  ( -1.000000000000000000, 0.000000000000000000, -0.000000000000000000 ) ) ;
#280 = AXIS2_PLACEMENT_3D ( 'NONE', #228, #3, #54 ) ;
#281 = DIRECTION ( 'NONE',  ( 1.000000000000000000, 0.000000000000000000, 0.000000000000000000 ) ) ;
#282 = EDGE_CURVE ( 'NONE', #64, #64, #119, .T. ) ;
#283 = PLANE ( 'NONE',  #52 ) ;
#284 = DIRECTION ( 'NONE',  ( -0.000000000000000000, -0.000000000000000000, -1.000000000000000000 ) ) ;
#285 = TOROIDAL_SURFACE ( 'NONE', #220, 52.39999999999999858, 1.599999999999993427 ) ;
#286 = LOCAL_TIME ( 13, 46, 15.00000000000000000, #304 ) ;
#287 = VERTEX_POINT ( 'NONE', #35 ) ;
#288 = FACE_OUTER_BOUND ( 'NONE', #45, .T. ) ;
#289 = ADVANCED_FACE ( 'NONE', ( #134, #288 ), #84, .T. ) ;
#290 = MANIFOLD_SOLID_BREP ( 'Boss-Extrude1', #105 ) ;
#291 = DIRECTION ( 'NONE',  ( -0.000000000000000000, -0.000000000000000000, 1.000000000000000000 ) ) ;
#292 = CARTESIAN_POINT ( 'NONE',  ( 12.00000000000000000, 0.000000000000000000, -7.150000000000002132 ) ) ;
#293 = CONICAL_SURFACE ( 'NONE', #307, 61.90000000000000568, 1.178097245096171308 ) ;
#294 = APPROVAL_DATE_TIME ( #21, #2 ) ;
#295 = CC_DESIGN_PERSON_AND_ORGANIZATION_ASSIGNMENT ( #325, #328, ( #4 ) ) ;
#296 = PERSON_AND_ORGANIZATION ( #175, #144 ) ;
#297 = ORIENTED_EDGE ( 'NONE', *, *, #32, .T. ) ;
#298 = DATE_AND_TIME ( #167, #286 ) ;
#299 = DIRECTION ( 'NONE',  ( 0.000000000000000000, 0.000000000000000000, -1.000000000000000000 ) ) ;
#300 = LOCAL_TIME ( 13, 46, 15.00000000000000000, #323 ) ;
#301 = PERSON_AND_ORGANIZATION ( #175, #144 ) ;
#302 = ORIENTED_EDGE ( 'NONE', *, *, #282, .T. ) ;
#303 = APPROVAL ( #240, 'UNSPECIFIED' ) ;
#304 = COORDINATED_UNIVERSAL_TIME_OFFSET ( 2, 0, .AHEAD. ) ;
#305 = EDGE_LOOP ( 'NONE', ( #241 ) ) ;
#306 = CARTESIAN_POINT ( 'NONE',  ( 0.000000000000000000, 0.000000000000000000, -4.950000000000001066 ) ) ;
#307 = AXIS2_PLACEMENT_3D ( 'NONE', #195, #299, #96 ) ;
#308 = FACE_OUTER_BOUND ( 'NONE', #46, .T. ) ;
#309 = ADVANCED_FACE ( 'NONE', ( #36, #264 ), #162, .F. ) ;
#310 = DIRECTION ( 'NONE',  ( 1.000000000000000000, 0.000000000000000000, 0.000000000000000000 ) ) ;
#311 = DIRECTION ( 'NONE',  ( 0.000000000000000000, 0.000000000000000000, 1.000000000000000000 ) ) ;
#312 = AXIS2_PLACEMENT_3D ( 'NONE', #265, #59, #56 ) ;
#313 = DIRECTION ( 'NONE',  ( 1.000000000000000000, 0.000000000000000000, 0.000000000000000000 ) ) ;
#314 = DIRECTION ( 'NONE',  ( 1.000000000000000000, 0.000000000000000000, 0.000000000000000000 ) ) ;
#315 = FACE_OUTER_BOUND ( 'NONE', #274, .T. ) ;
#316 = CARTESIAN_POINT ( 'NONE',  ( 0.000000000000000000, 0.000000000000000000, 7.150000000000000355 ) ) ;
#317 = DESIGN_CONTEXT ( 'detailed design', #117, 'design' ) ;
#318 = ADVANCED_FACE ( 'NONE', ( #315, #161 ), #83, .F. ) ;
#319 = CALENDAR_DATE ( 2025, 14, 8 ) ;
#320 = AXIS2_PLACEMENT_3D ( 'NONE', #50, #78, #108 ) ;
#321 = APPLICATION_PROTOCOL_DEFINITION ( 'international standard', 'config_control_design', 1994, #34 ) ;
#322 = DIRECTION ( 'NONE',  ( 1.000000000000000000, 0.000000000000000000, 0.000000000000000000 ) ) ;
#323 = COORDINATED_UNIVERSAL_TIME_OFFSET ( 2, 0, .AHEAD. ) ;
#324 = ORIENTED_EDGE ( 'NONE', *, *, #63, .T. ) ;
#325 = PERSON_AND_ORGANIZATION ( #175, #144 ) ;
#326 = CC_DESIGN_PERSON_AND_ORGANIZATION_ASSIGNMENT ( #247, #95, ( #217 ) ) ;
#327 = AXIS2_PLACEMENT_3D ( 'NONE', #110, #109, #133 ) ;
#328 = PERSON_AND_ORGANIZATION_ROLE ( 'creator' ) ;
#329 = EDGE_LOOP ( 'NONE', ( #71 ) ) ;
ENDSEC;
END-ISO-10303-21;
